0
SECTION
2
HEADER
9
$ACADVER
1
AC1018
9
$DWGCODEPAGE
3
ANSI_1252
9
$LASTSAVEDBY
1
aisaacs
9
$HANDSEED
5
F4
9
$ANGBASE
50
0.0
9
$ANGDIR
70
0
9
$ATTMODE
70
1
9
$AUNITS
70
0
9
$AUPREC
70
1
9
$CECOLOR
62
256
9
$CELTSCALE
40
1.0
9
$CELTYPE
6
ByLayer
9
$CELWEIGHT
370
-1
9
$CLAYER
8
0
9
$CMLJUST
70
0
9
$CMLSCALE
40
1.0
9
$CMLSTYLE
2
Standard
9
$DIMSTYLE
2
Standard
9
$TEXTSIZE
40
0.1666666667
9
$TEXTSTYLE
7
Standard
9
$LUNITS
70
2
9
$LUPREC
70
4
9
$MIRRTEXT
70
1
9
$EXTNAMES
290
1
9
$INSBASE
10
0.0
20
0.0
30
0.0
9
$INSUNITS
70
1
9
$LTSCALE
40
1.0
9
$LWDISPLAY
290
1
9
$PDMODE
70
0
9
$PDSIZE
40
-1.0
9
$PLINEGEN
70
0
9
$PSLTSCALE
70
1
9
$TDCREATE
40
2461123.58939267
9
$TDUCREATE
40
2461123.75605933
9
$TDUPDATE
40
2461123.58939314
9
$TDUUPDATE
40
2461123.75605979
9
$TDINDWG
40
0.0000000115740741
9
$UCSORG
10
0.0
20
0.0
30
0.0
9
$UCSXDIR
10
1.0
20
0.0
30
0.0
9
$UCSYDIR
10
0.0
20
1.0
30
0.0
9
$DIMADEC
70
0
9
$DIMALT
70
0
9
$DIMALTD
70
2
9
$DIMALTF
40
25.4
9
$DIMALTRND
40
0.0
9
$DIMALTTD
70
2
9
$DIMALTTZ
70
0
9
$DIMALTU
70
2
9
$DIMALTZ
70
0
9
$DIMAPOST
1

9
$DIMATFIT
70
3
9
$DIMAUNIT
70
0
9
$DIMASZ
40
0.18
9
$DIMAZIN
70
3
9
$DIMSAH
70
0
9
$DIMBLK
1

9
$DIMLDRBLK
1

9
$DIMCEN
40
0.09
9
$DIMCLRD
70
0
9
$DIMCLRE
70
0
9
$DIMCLRT
70
0
9
$DIMDEC
70
4
9
$DIMDLE
40
0.0
9
$DIMDLI
40
0.38
9
$DIMDSEP
70
46
9
$DIMEXE
40
0.18
9
$DIMEXO
40
0.0625
9
$DIMFXLON
70
0
9
$DIMFXL
40
1.0
9
$DIMGAP
40
0.09
9
$DIMJUST
70
0
9
$DIMLFAC
40
1.0
9
$DIMLUNIT
70
2
9
$DIMLWD
70
-2
9
$DIMLWE
70
-2
9
$DIMPOST
1

9
$DIMRND
40
0.0
9
$DIMSCALE
40
1.0
9
$DIMSD1
70
0
9
$DIMSD2
70
0
9
$DIMSE1
70
0
9
$DIMSE2
70
0
9
$DIMSOXD
70
0
9
$DIMTAD
70
0
9
$DIMTDEC
70
4
9
$DIMTFAC
40
1.0
9
$DIMTIH
70
0
9
$DIMTIX
70
0
9
$DIMTM
40
0.0
9
$DIMTMOVE
70
0
9
$DIMTOFL
70
0
9
$DIMTOH
70
0
9
$DIMTOL
70
0
9
$DIMLIM
70
0
9
$DIMTOLJ
70
1
9
$DIMTP
40
0.0
9
$DIMTXT
40
0.18
9
$DIMTXTDIRECTION
70
0
9
$DIMTZIN
70
0
9
$DIMZIN
70
0
9
$DIMFRAC
70
0
9
$DIMLTYPE
6
ByBlock
9
$DIMLTEX1
6
ByBlock
9
$DIMLTEX2
6
ByBlock
9
$EXTMIN
10
0.0
20
0.0
30
0.0
9
$EXTMAX
10
17.0
20
11.0
30
0.0
9
$LIMMIN
10
0.0
20
0.0
9
$LIMMAX
10
17.0
20
11.0
9
$ORTHOMODE
70
0
9
$REGENMODE
70
1
9
$FILLMODE
70
1
9
$QTEXTMODE
70
0
9
$TRACEWID
40
0.05
9
$DISPSILH
70
0
9
$SKETCHINC
40
0.1
9
$FILLETRAD
40
0.5
9
$MENU
1
.
9
$ELEVATION
40
0.0
9
$PELEVATION
40
0.0
9
$THICKNESS
40
0.0
9
$LIMCHECK
70
0
9
$CHAMFERA
40
0.0
9
$CHAMFERB
40
0.0
9
$CHAMFERC
40
0.0
9
$CHAMFERD
40
0.0
9
$SKPOLY
70
0
9
$TDUSRTIMER
40
0.0000000116
9
$USRTIMER
70
1
9
$PLINEWID
40
0.0
9
$SPLFRAME
70
0
9
$SPLINETYPE
70
6
9
$SPLINESEGS
70
8
9
$SURFTAB1
70
6
9
$SURFTAB2
70
6
9
$SURFTYPE
70
6
9
$SURFU
70
6
9
$SURFV
70
6
9
$UCSBASE
2

9
$UCSNAME
2

9
$UCSORTHOREF
2

9
$UCSORTHOVIEW
70
0
9
$UCSORGTOP
10
0.0
20
0.0
30
0.0
9
$UCSORGBOTTOM
10
0.0
20
0.0
30
0.0
9
$UCSORGLEFT
10
0.0
20
0.0
30
0.0
9
$UCSORGRIGHT
10
0.0
20
0.0
30
0.0
9
$UCSORGFRONT
10
0.0
20
0.0
30
0.0
9
$UCSORGBACK
10
0.0
20
0.0
30
0.0
9
$PUCSBASE
2

9
$PUCSNAME
2

9
$PUCSORG
10
0.0
20
0.0
30
0.0
9
$PUCSXDIR
10
1.0
20
0.0
30
0.0
9
$PUCSYDIR
10
0.0
20
1.0
30
0.0
9
$PUCSORTHOREF
2

9
$PUCSORTHOVIEW
70
0
9
$PUCSORGTOP
10
0.0
20
0.0
30
0.0
9
$PUCSORGBOTTOM
10
0.0
20
0.0
30
0.0
9
$PUCSORGLEFT
10
0.0
20
0.0
30
0.0
9
$PUCSORGRIGHT
10
0.0
20
0.0
30
0.0
9
$PUCSORGFRONT
10
0.0
20
0.0
30
0.0
9
$PUCSORGBACK
10
0.0
20
0.0
30
0.0
9
$USERI1
70
0
9
$USERI2
70
0
9
$USERI3
70
0
9
$USERI4
70
0
9
$USERI5
70
0
9
$USERR1
40
0.0
9
$USERR2
40
0.0
9
$USERR3
40
0.0
9
$USERR4
40
0.0
9
$USERR5
40
0.0
9
$WORLDVIEW
70
1
9
$SHADEDGE
70
3
9
$SHADEDIF
70
70
9
$TILEMODE
70
1
9
$MAXACTVP
70
64
9
$PINSBASE
10
0.0
20
0.0
30
0.0
9
$PLIMCHECK
70
0
9
$PEXTMIN
10
100000000000000000000.0
20
100000000000000000000.0
30
100000000000000000000.0
9
$PEXTMAX
10
-100000000000000000000.0
20
-100000000000000000000.0
30
-100000000000000000000.0
9
$PLIMMIN
10
0.0
20
0.0
9
$PLIMMAX
10
12.0
20
9.0
9
$UNITMODE
70
0
9
$VISRETAIN
70
1
9
$TREEDEPTH
70
3020
9
$PROXYGRAPHICS
70
1
9
$MEASUREMENT
70
0
9
$ENDCAPS
280
0
9
$JOINSTYLE
280
0
9
$HYPERLINKBASE
1

9
$STYLESHEET
1

9
$XEDIT
290
1
9
$CEPSNTYPE
380
0
9
$PSTYLEMODE
290
1
9
$FINGERPRINTGUID
2
{371B8A5D-F3C8-4D27-852D-8A69AF1CAA12}
9
$VERSIONGUID
2
{FAEB1C32-E019-11D5-929B-00C0DF256EC4}
9
$PSVPSCALE
40
0.0
9
$OLESTARTUP
290
0
9
$SORTENTS
280
127
9
$INDEXCTL
280
0
9
$HIDETEXT
280
1
9
$XCLIPFRAME
290
0
9
$HALOGAP
280
0
9
$OBSCOLOR
70
257
9
$OBSLTYPE
280
0
9
$INTERSECTIONDISPLAY
280
0
9
$INTERSECTIONCOLOR
70
257
9
$PROJECTNAME
1

0
ENDSEC
0
SECTION
2
CLASSES
0
CLASS
1
RASTERVARIABLES
2
AcDbRasterVariables
3
ISM
90
0
91
1
280
0
281
0
0
ENDSEC
0
SECTION
2
TABLES
0
TABLE
2
APPID
5
9
330
0
100
AcDbSymbolTable
70
5
0
APPID
5
12
330
9
100
AcDbSymbolTableRecord
100
AcDbRegAppTableRecord
2
ACAD
70
0
0
APPID
5
D4
330
9
100
AcDbSymbolTableRecord
100
AcDbRegAppTableRecord
2
ACAD_MLEADERVER
70
0
0
APPID
5
E9
330
9
100
AcDbSymbolTableRecord
100
AcDbRegAppTableRecord
2
AcCmTransparency
70
0
0
APPID
5
EA
330
9
100
AcDbSymbolTableRecord
100
AcDbRegAppTableRecord
2
GradientColor1ACI
70
0
0
APPID
5
EB
330
9
100
AcDbSymbolTableRecord
100
AcDbRegAppTableRecord
2
GradientColor2ACI
70
0
0
ENDTAB
0
TABLE
2
VPORT
5
8
330
0
100
AcDbSymbolTable
70
1
0
VPORT
5
29
330
8
100
AcDbSymbolTableRecord
100
AcDbViewportTableRecord
2
*Active
70
0
10
0.0
20
0.0
11
1.0
21
1.0
12
8.5
22
5.5
13
0.0
23
0.0
14
0.5
24
0.5
15
0.5
25
0.5
16
0.0
26
0.0
36
1.0
17
0.0
27
0.0
37
0.0
40
11.0
41
1.5454545455
75
0
76
0
0
ENDTAB
0
TABLE
2
LTYPE
5
5
330
0
100
AcDbSymbolTable
70
8
0
LTYPE
5
14
330
5
100
AcDbSymbolTableRecord
100
AcDbLinetypeTableRecord
2
ByBlock
70
0
3

72
65
73
0
40
0.0
0
LTYPE
5
15
330
5
100
AcDbSymbolTableRecord
100
AcDbLinetypeTableRecord
2
ByLayer
70
0
3

72
65
73
0
40
0.0
0
LTYPE
5
16
330
5
100
AcDbSymbolTableRecord
100
AcDbLinetypeTableRecord
2
Continuous
70
0
3
Solid line
72
65
73
0
40
0.0
0
LTYPE
5
6E
330
5
100
AcDbSymbolTableRecord
100
AcDbLinetypeTableRecord
2
HIDDEN
70
0
3
Hidden __ __ __ __ __ __ __ __ __ __ __ __ __ __
72
65
73
2
40
0.075
49
0.05
74
0
49
-0.025
74
0
0
LTYPE
5
6F
330
5
100
AcDbSymbolTableRecord
100
AcDbLinetypeTableRecord
2
PHANTOM
70
0
3
Phantom ______  __  __  ______  __  __  ______
72
65
73
6
40
0.5
49
0.25
74
0
49
-0.05
74
0
49
0.05
74
0
49
-0.05
74
0
49
0.05
74
0
49
-0.05
74
0
0
LTYPE
5
70
330
5
100
AcDbSymbolTableRecord
100
AcDbLinetypeTableRecord
2
CENTER
70
0
3
Center ____ _ ____ _ ____ _ ____ _ ____ _ ____
72
65
73
4
40
0.4
49
0.25
74
0
49
-0.05
74
0
49
0.05
74
0
49
-0.05
74
0
0
LTYPE
5
71
330
5
100
AcDbSymbolTableRecord
100
AcDbLinetypeTableRecord
2
CENTERX2
70
0
3
Center (2x) ________  __  ________  __  _____
72
65
73
4
40
0.8
49
0.5
74
0
49
-0.1
74
0
49
0.1
74
0
49
-0.1
74
0
0
LTYPE
5
72
330
5
100
AcDbSymbolTableRecord
100
AcDbLinetypeTableRecord
2
DOT2
70
0
3
Dot (.5x) ........................................
72
65
73
2
40
0.025
49
0.0
74
0
49
-0.025
74
0
0
ENDTAB
0
TABLE
2
LAYER
5
2
330
0
100
AcDbSymbolTable
70
4
0
LAYER
5
10
330
2
100
AcDbSymbolTableRecord
100
AcDbLayerTableRecord
2
0
70
0
62
7
6
Continuous
290
1
370
-3
390
0
0
LAYER
5
73
330
2
100
AcDbSymbolTableRecord
100
AcDbLayerTableRecord
2
SLD-0
70
0
62
179
6
Continuous
290
1
370
-3
390
0
0
LAYER
5
E1
330
2
100
AcDbSymbolTableRecord
100
AcDbLayerTableRecord
2
BEND
70
0
62
2
6
Continuous
290
1
370
-3
390
0
0
LAYER
5
E3
330
2
100
AcDbSymbolTableRecord
100
AcDbLayerTableRecord
2
ETCH
70
0
62
3
6
Continuous
290
1
370
-3
390
0
0
ENDTAB
0
TABLE
2
STYLE
5
3
330
0
100
AcDbSymbolTable
70
2
0
STYLE
5
11
330
3
100
AcDbSymbolTableRecord
100
AcDbTextStyleTableRecord
2
Standard
3
simplex.shx
70
0
71
0
40
0.0
41
1.0
42
0.0
50
0.0
0
STYLE
5
CC
330
3
100
AcDbSymbolTableRecord
100
AcDbTextStyleTableRecord
2
SLDTEXTSTYLE0
3
simplex.shx
70
0
71
0
40
0.0
41
0.5721875
42
0.0
50
0.0
0
ENDTAB
0
TABLE
2
DIMSTYLE
5
A
330
0
100
AcDbSymbolTable
70
1
100
AcDbDimStyleTable
0
DIMSTYLE
105
27
330
A
100
AcDbSymbolTableRecord
100
AcDbDimStyleTableRecord
2
Standard
3

4

40
1.0
41
0.18
42
0.0625
43
0.38
44
0.18
45
0.0
46
0.0
47
0.0
48
0.0
49
1.0
70
0
71
0
72
0
73
0
74
0
75
0
76
0
77
0
78
0
79
3
140
0.18
141
0.09
143
25.4
144
1.0
146
1.0
147
0.09
148
0.0
170
0
171
2
172
0
174
0
175
0
176
0
177
0
178
0
179
0
271
4
272
4
273
2
274
2
275
0
276
0
277
2
278
46
279
0
280
0
281
0
282
0
283
1
284
0
285
0
286
0
289
3
290
0
294
0
340
11
173
0
345
14
346
14
347
14
371
-2
372
-2
0
ENDTAB
0
TABLE
2
VIEW
5
6
330
0
100
AcDbSymbolTable
70
0
0
ENDTAB
0
TABLE
2
UCS
5
7
330
0
100
AcDbSymbolTable
70
0
0
ENDTAB
0
TABLE
2
BLOCK_RECORD
5
1
330
0
100
AcDbSymbolTable
70
3
0
BLOCK_RECORD
5
1F
330
1
100
AcDbSymbolTableRecord
100
AcDbBlockTableRecord
2
*Model_Space
340
22
0
BLOCK_RECORD
5
1B
330
1
100
AcDbSymbolTableRecord
100
AcDbBlockTableRecord
2
*Paper_Space
340
1E
0
BLOCK_RECORD
5
23
330
1
100
AcDbSymbolTableRecord
100
AcDbBlockTableRecord
2
*Paper_Space0
340
26
0
ENDTAB
0
ENDSEC
0
SECTION
2
BLOCKS
0
BLOCK
5
20
330
1F
100
AcDbEntity
67
0
8
0
100
AcDbBlockBegin
2
*Model_Space
70
0
10
0.0
20
0.0
30
0.0
3
*Model_Space
0
ENDBLK
5
21
330
1F
100
AcDbEntity
8
0
100
AcDbBlockEnd
0
BLOCK
5
1C
330
1B
100
AcDbEntity
67
1
8
0
100
AcDbBlockBegin
2
*Paper_Space
70
0
10
0.0
20
0.0
30
0.0
3
*Paper_Space
0
ENDBLK
5
1D
330
1B
100
AcDbEntity
8
0
100
AcDbBlockEnd
0
BLOCK
5
24
330
23
100
AcDbEntity
67
1
8
0
100
AcDbBlockBegin
2
*Paper_Space0
70
0
10
0.0
20
0.0
30
0.0
3
*Paper_Space0
0
ENDBLK
5
25
330
23
100
AcDbEntity
8
0
100
AcDbBlockEnd
0
ENDSEC
0
SECTION
2
ENTITIES
0
LINE
5
74
330
1F
100
AcDbEntity
67
0
8
BEND
62
256
6
CENTERX2
370
-1
48
1.0
60
0
100
AcDbLine
10
-34.7447870314
20
25.5
30
0.0
11
-34.7447870314
21
-25.5
31
0.0
39
0.0
210
0.0
220
0.0
230
1.0
0
LINE
5
75
330
1F
100
AcDbEntity
67
0
8
BEND
62
256
6
CENTERX2
370
-1
48
1.0
60
0
100
AcDbLine
10
34.7447870314
20
-25.5
30
0.0
11
34.7447870314
21
-7.0
31
0.0
39
0.0
210
0.0
220
0.0
230
1.0
0
LINE
5
76
330
1F
100
AcDbEntity
67
0
8
BEND
62
256
6
CENTERX2
370
-1
48
1.0
60
0
100
AcDbLine
10
34.7447870314
20
7.0
30
0.0
11
34.7447870314
21
25.5
31
0.0
39
0.0
210
0.0
220
0.0
230
1.0
0
ELLIPSE
5
77
330
1F
100
AcDbEntity
67
0
8
0
62
7
6
Continuous
370
25
48
1.0
60
0
100
AcDbEllipse
10
-55.6648265946
20
11.5
30
0.0
11
-0.848528137423869
21
0.0000000000000001
31
0.0
210
-0.0000000000000069
220
0.0
230
1.0
40
0.7071067812
41
1.46008486522431
42
-1.46008486522429
0
ELLIPSE
5
78
330
1F
100
AcDbEntity
67
0
8
0
62
7
6
Continuous
370
25
48
1.0
60
0
100
AcDbEllipse
10
-55.8523265946
20
11.5
30
0.0
11
-0.848528137423869
21
0.0000000000000001
31
0.0
210
-0.0000000000000069
220
0.0
230
1.0
40
0.7071067812
41
-1.68150778836545
42
1.68150778836546
0
LINE
5
79
330
1F
100
AcDbEntity
67
0
8
0
62
7
6
Continuous
370
25
48
1.0
60
0
100
AcDbLine
10
5.0
20
15.75
30
0.0
11
5.0
21
16.125
31
0.0
39
0.0
210
0.0
220
0.0
230
1.0
0
LINE
5
7A
330
1F
100
AcDbEntity
67
0
8
0
62
7
6
Continuous
370
25
48
1.0
60
0
100
AcDbLine
10
5.0
20
16.125
30
0.0
11
3.0
21
16.125
31
0.0
39
0.0
210
0.0
220
0.0
230
1.0
0
LINE
5
7B
330
1F
100
AcDbEntity
67
0
8
0
62
7
6
Continuous
370
25
48
1.0
60
0
100
AcDbLine
10
3.0
20
16.125
30
0.0
11
3.0
21
15.75
31
0.0
39
0.0
210
0.0
220
0.0
230
1.0
0
LINE
5
7C
330
1F
100
AcDbEntity
67
0
8
0
62
7
6
Continuous
370
25
48
1.0
60
0
100
AcDbLine
10
3.0
20
15.75
30
0.0
11
5.0
21
15.75
31
0.0
39
0.0
210
0.0
220
0.0
230
1.0
0
LINE
5
7D
330
1F
100
AcDbEntity
67
0
8
0
62
7
6
Continuous
370
25
48
1.0
60
0
100
AcDbLine
10
5.0
20
9.375
30
0.0
11
5.0
21
9.75
31
0.0
39
0.0
210
0.0
220
0.0
230
1.0
0
LINE
5
7E
330
1F
100
AcDbEntity
67
0
8
0
62
7
6
Continuous
370
25
48
1.0
60
0
100
AcDbLine
10
5.0
20
9.75
30
0.0
11
3.0
21
9.75
31
0.0
39
0.0
210
0.0
220
0.0
230
1.0
0
LINE
5
7F
330
1F
100
AcDbEntity
67
0
8
0
62
7
6
Continuous
370
25
48
1.0
60
0
100
AcDbLine
10
3.0
20
9.75
30
0.0
11
3.0
21
9.375
31
0.0
39
0.0
210
0.0
220
0.0
230
1.0
0
LINE
5
80
330
1F
100
AcDbEntity
67
0
8
0
62
7
6
Continuous
370
25
48
1.0
60
0
100
AcDbLine
10
3.0
20
9.375
30
0.0
11
5.0
21
9.375
31
0.0
39
0.0
210
0.0
220
0.0
230
1.0
0
LINE
5
81
330
1F
100
AcDbEntity
67
0
8
0
62
7
6
Continuous
370
25
48
1.0
60
0
100
AcDbLine
10
5.0
20
3.0
30
0.0
11
5.0
21
3.375
31
0.0
39
0.0
210
0.0
220
0.0
230
1.0
0
LINE
5
82
330
1F
100
AcDbEntity
67
0
8
0
62
7
6
Continuous
370
25
48
1.0
60
0
100
AcDbLine
10
5.0
20
3.375
30
0.0
11
3.0
21
3.375
31
0.0
39
0.0
210
0.0
220
0.0
230
1.0
0
LINE
5
83
330
1F
100
AcDbEntity
67
0
8
0
62
7
6
Continuous
370
25
48
1.0
60
0
100
AcDbLine
10
3.0
20
3.375
30
0.0
11
3.0
21
3.0
31
0.0
39
0.0
210
0.0
220
0.0
230
1.0
0
LINE
5
84
330
1F
100
AcDbEntity
67
0
8
0
62
7
6
Continuous
370
25
48
1.0
60
0
100
AcDbLine
10
3.0
20
3.0
30
0.0
11
5.0
21
3.0
31
0.0
39
0.0
210
0.0
220
0.0
230
1.0
0
LINE
5
85
330
1F
100
AcDbEntity
67
0
8
0
62
7
6
Continuous
370
25
48
1.0
60
0
100
AcDbLine
10
5.0
20
-3.375
30
0.0
11
5.0
21
-3.0
31
0.0
39
0.0
210
0.0
220
0.0
230
1.0
0
LINE
5
86
330
1F
100
AcDbEntity
67
0
8
0
62
7
6
Continuous
370
25
48
1.0
60
0
100
AcDbLine
10
5.0
20
-3.0
30
0.0
11
3.0
21
-3.0
31
0.0
39
0.0
210
0.0
220
0.0
230
1.0
0
LINE
5
87
330
1F
100
AcDbEntity
67
0
8
0
62
7
6
Continuous
370
25
48
1.0
60
0
100
AcDbLine
10
3.0
20
-3.0
30
0.0
11
3.0
21
-3.375
31
0.0
39
0.0
210
0.0
220
0.0
230
1.0
0
LINE
5
88
330
1F
100
AcDbEntity
67
0
8
0
62
7
6
Continuous
370
25
48
1.0
60
0
100
AcDbLine
10
3.0
20
-3.375
30
0.0
11
5.0
21
-3.375
31
0.0
39
0.0
210
0.0
220
0.0
230
1.0
0
LINE
5
89
330
1F
100
AcDbEntity
67
0
8
0
62
7
6
Continuous
370
25
48
1.0
60
0
100
AcDbLine
10
-3.0
20
15.75
30
0.0
11
-3.0
21
16.125
31
0.0
39
0.0
210
0.0
220
0.0
230
1.0
0
LINE
5
8A
330
1F
100
AcDbEntity
67
0
8
0
62
7
6
Continuous
370
25
48
1.0
60
0
100
AcDbLine
10
-3.0
20
16.125
30
0.0
11
-5.0
21
16.125
31
0.0
39
0.0
210
0.0
220
0.0
230
1.0
0
LINE
5
8B
330
1F
100
AcDbEntity
67
0
8
0
62
7
6
Continuous
370
25
48
1.0
60
0
100
AcDbLine
10
-5.0
20
16.125
30
0.0
11
-5.0
21
15.75
31
0.0
39
0.0
210
0.0
220
0.0
230
1.0
0
LINE
5
8C
330
1F
100
AcDbEntity
67
0
8
0
62
7
6
Continuous
370
25
48
1.0
60
0
100
AcDbLine
10
-5.0
20
15.75
30
0.0
11
-3.0
21
15.75
31
0.0
39
0.0
210
0.0
220
0.0
230
1.0
0
LINE
5
8D
330
1F
100
AcDbEntity
67
0
8
0
62
7
6
Continuous
370
25
48
1.0
60
0
100
AcDbLine
10
-3.0
20
9.375
30
0.0
11
-3.0
21
9.75
31
0.0
39
0.0
210
0.0
220
0.0
230
1.0
0
LINE
5
8E
330
1F
100
AcDbEntity
67
0
8
0
62
7
6
Continuous
370
25
48
1.0
60
0
100
AcDbLine
10
-3.0
20
9.75
30
0.0
11
-5.0
21
9.75
31
0.0
39
0.0
210
0.0
220
0.0
230
1.0
0
LINE
5
8F
330
1F
100
AcDbEntity
67
0
8
0
62
7
6
Continuous
370
25
48
1.0
60
0
100
AcDbLine
10
-5.0
20
9.75
30
0.0
11
-5.0
21
9.375
31
0.0
39
0.0
210
0.0
220
0.0
230
1.0
0
LINE
5
90
330
1F
100
AcDbEntity
67
0
8
0
62
7
6
Continuous
370
25
48
1.0
60
0
100
AcDbLine
10
-5.0
20
9.375
30
0.0
11
-3.0
21
9.375
31
0.0
39
0.0
210
0.0
220
0.0
230
1.0
0
LINE
5
91
330
1F
100
AcDbEntity
67
0
8
0
62
7
6
Continuous
370
25
48
1.0
60
0
100
AcDbLine
10
-3.0
20
3.0
30
0.0
11
-3.0
21
3.375
31
0.0
39
0.0
210
0.0
220
0.0
230
1.0
0
LINE
5
92
330
1F
100
AcDbEntity
67
0
8
0
62
7
6
Continuous
370
25
48
1.0
60
0
100
AcDbLine
10
-3.0
20
3.375
30
0.0
11
-5.0
21
3.375
31
0.0
39
0.0
210
0.0
220
0.0
230
1.0
0
LINE
5
93
330
1F
100
AcDbEntity
67
0
8
0
62
7
6
Continuous
370
25
48
1.0
60
0
100
AcDbLine
10
-5.0
20
3.375
30
0.0
11
-5.0
21
3.0
31
0.0
39
0.0
210
0.0
220
0.0
230
1.0
0
LINE
5
94
330
1F
100
AcDbEntity
67
0
8
0
62
7
6
Continuous
370
25
48
1.0
60
0
100
AcDbLine
10
-5.0
20
3.0
30
0.0
11
-3.0
21
3.0
31
0.0
39
0.0
210
0.0
220
0.0
230
1.0
0
LINE
5
95
330
1F
100
AcDbEntity
67
0
8
0
62
7
6
Continuous
370
25
48
1.0
60
0
100
AcDbLine
10
-3.0
20
-3.375
30
0.0
11
-3.0
21
-3.0
31
0.0
39
0.0
210
0.0
220
0.0
230
1.0
0
LINE
5
96
330
1F
100
AcDbEntity
67
0
8
0
62
7
6
Continuous
370
25
48
1.0
60
0
100
AcDbLine
10
-3.0
20
-3.0
30
0.0
11
-5.0
21
-3.0
31
0.0
39
0.0
210
0.0
220
0.0
230
1.0
0
LINE
5
97
330
1F
100
AcDbEntity
67
0
8
0
62
7
6
Continuous
370
25
48
1.0
60
0
100
AcDbLine
10
-5.0
20
-3.0
30
0.0
11
-5.0
21
-3.375
31
0.0
39
0.0
210
0.0
220
0.0
230
1.0
0
LINE
5
98
330
1F
100
AcDbEntity
67
0
8
0
62
7
6
Continuous
370
25
48
1.0
60
0
100
AcDbLine
10
-5.0
20
-3.375
30
0.0
11
-3.0
21
-3.375
31
0.0
39
0.0
210
0.0
220
0.0
230
1.0
0
CIRCLE
5
99
330
1F
100
AcDbEntity
67
0
8
0
62
7
6
Continuous
370
25
48
1.0
60
0
100
AcDbCircle
10
0.0
20
19.125
30
0.0
40
0.5625
39
0.0
210
0.0
220
0.0
230
1.0
0
CIRCLE
5
9A
330
1F
100
AcDbEntity
67
0
8
0
62
7
6
Continuous
370
25
48
1.0
60
0
100
AcDbCircle
10
0.0
20
12.75
30
0.0
40
0.5625
39
0.0
210
0.0
220
0.0
230
1.0
0
CIRCLE
5
9B
330
1F
100
AcDbEntity
67
0
8
0
62
7
6
Continuous
370
25
48
1.0
60
0
100
AcDbCircle
10
0.0
20
6.375
30
0.0
40
0.5625
39
0.0
210
0.0
220
0.0
230
1.0
0
CIRCLE
5
9C
330
1F
100
AcDbEntity
67
0
8
0
62
7
6
Continuous
370
25
48
1.0
60
0
100
AcDbCircle
10
0.0
20
0.0
30
0.0
40
0.5625
39
0.0
210
0.0
220
0.0
230
1.0
0
CIRCLE
5
9D
330
1F
100
AcDbEntity
67
0
8
0
62
7
6
Continuous
370
25
48
1.0
60
0
100
AcDbCircle
10
0.0
20
-6.375
30
0.0
40
0.5625
39
0.0
210
0.0
220
0.0
230
1.0
0
LINE
5
9E
330
1F
100
AcDbEntity
67
0
8
0
62
7
6
Continuous
370
25
48
1.0
60
0
100
AcDbLine
10
60.8020740629
20
25.5
30
0.0
11
60.8020740629
21
-25.5
31
0.0
39
0.0
210
0.0
220
0.0
230
1.0
0
LINE
5
9F
330
1F
100
AcDbEntity
67
0
8
0
62
7
6
Continuous
370
25
48
1.0
60
0
100
AcDbLine
10
-60.8020740629
20
-25.5
30
0.0
11
60.8020740629
21
-25.5
31
0.0
39
0.0
210
0.0
220
0.0
230
1.0
0
LINE
5
A0
330
1F
100
AcDbEntity
67
0
8
0
62
7
6
Continuous
370
25
48
1.0
60
0
100
AcDbLine
10
-60.8020740629
20
-25.5
30
0.0
11
-60.8020740629
21
-21.21875
31
0.0
39
0.0
210
0.0
220
0.0
230
1.0
0
LINE
5
A1
330
1F
100
AcDbEntity
67
0
8
0
62
7
6
Continuous
370
25
48
1.0
60
0
100
AcDbLine
10
-57.8645740629
20
-21.21875
30
0.0
11
-60.8020740629
21
-21.21875
31
0.0
39
0.0
210
0.0
220
0.0
230
1.0
0
ARC
5
A2
330
1F
100
AcDbEntity
67
0
8
0
62
7
6
Continuous
370
25
48
1.0
60
0
100
AcDbCircle
39
0.0
10
-57.8645740629
20
-20.65625
30
0.0
40
0.5625
210
0.0
220
0.0
230
1.0
100
AcDbArc
50
270.0
51
0.0
0
LINE
5
A3
330
1F
100
AcDbEntity
67
0
8
0
62
7
6
Continuous
370
25
48
1.0
60
0
100
AcDbLine
10
-57.3020740629
20
-14.09375
30
0.0
11
-57.3020740629
21
-20.65625
31
0.0
39
0.0
210
0.0
220
0.0
230
1.0
0
ARC
5
A4
330
1F
100
AcDbEntity
67
0
8
0
62
7
6
Continuous
370
25
48
1.0
60
0
100
AcDbCircle
39
0.0
10
-57.8645740629
20
-14.09375
30
0.0
40
0.5625
210
0.0
220
0.0
230
1.0
100
AcDbArc
50
0.0
51
90.0
0
LINE
5
A5
330
1F
100
AcDbEntity
67
0
8
0
62
7
6
Continuous
370
25
48
1.0
60
0
100
AcDbLine
10
-60.8020740629
20
-13.53125
30
0.0
11
-57.8645740629
21
-13.53125
31
0.0
39
0.0
210
0.0
220
0.0
230
1.0
0
LINE
5
A6
330
1F
100
AcDbEntity
67
0
8
0
62
7
6
Continuous
370
25
48
1.0
60
0
100
AcDbLine
10
-60.8020740629
20
-13.53125
30
0.0
11
-60.8020740629
21
13.46875
31
0.0
39
0.0
210
0.0
220
0.0
230
1.0
0
LINE
5
A7
330
1F
100
AcDbEntity
67
0
8
0
62
7
6
Continuous
370
25
48
1.0
60
0
100
AcDbLine
10
-57.8645740629
20
13.46875
30
0.0
11
-60.8020740629
21
13.46875
31
0.0
39
0.0
210
0.0
220
0.0
230
1.0
0
ARC
5
A8
330
1F
100
AcDbEntity
67
0
8
0
62
7
6
Continuous
370
25
48
1.0
60
0
100
AcDbCircle
39
0.0
10
-57.8645740629
20
14.03125
30
0.0
40
0.5625
210
0.0
220
0.0
230
1.0
100
AcDbArc
50
270.0
51
0.0
0
LINE
5
A9
330
1F
100
AcDbEntity
67
0
8
0
62
7
6
Continuous
370
25
48
1.0
60
0
100
AcDbLine
10
-57.3020740629
20
20.59375
30
0.0
11
-57.3020740629
21
14.03125
31
0.0
39
0.0
210
0.0
220
0.0
230
1.0
0
ARC
5
AA
330
1F
100
AcDbEntity
67
0
8
0
62
7
6
Continuous
370
25
48
1.0
60
0
100
AcDbCircle
39
0.0
10
-57.8645740629
20
20.59375
30
0.0
40
0.5625
210
0.0
220
0.0
230
1.0
100
AcDbArc
50
0.0
51
90.0
0
LINE
5
AB
330
1F
100
AcDbEntity
67
0
8
0
62
7
6
Continuous
370
25
48
1.0
60
0
100
AcDbLine
10
-60.8020740629
20
21.15625
30
0.0
11
-57.8645740629
21
21.15625
31
0.0
39
0.0
210
0.0
220
0.0
230
1.0
0
LINE
5
AC
330
1F
100
AcDbEntity
67
0
8
0
62
7
6
Continuous
370
25
48
1.0
60
0
100
AcDbLine
10
-60.8020740629
20
21.15625
30
0.0
11
-60.8020740629
21
25.5
31
0.0
39
0.0
210
0.0
220
0.0
230
1.0
0
LINE
5
AD
330
1F
100
AcDbEntity
67
0
8
0
62
7
6
Continuous
370
25
48
1.0
60
0
100
AcDbLine
10
60.8020740629
20
25.5
30
0.0
11
-60.8020740629
21
25.5
31
0.0
39
0.0
210
0.0
220
0.0
230
1.0
0
CIRCLE
5
AE
330
1F
100
AcDbEntity
67
0
8
0
62
7
6
Continuous
370
25
48
1.0
60
0
100
AcDbCircle
10
0.0
20
-19.125
30
0.0
40
0.5625
39
0.0
210
0.0
220
0.0
230
1.0
0
CIRCLE
5
AF
330
1F
100
AcDbEntity
67
0
8
0
62
7
6
Continuous
370
25
48
1.0
60
0
100
AcDbCircle
10
0.0
20
-12.75
30
0.0
40
0.5625
39
0.0
210
0.0
220
0.0
230
1.0
0
LINE
5
B0
330
1F
100
AcDbEntity
67
0
8
0
62
7
6
Continuous
370
25
48
1.0
60
0
100
AcDbLine
10
5.0
20
-15.75
30
0.0
11
3.0
21
-15.75
31
0.0
39
0.0
210
0.0
220
0.0
230
1.0
0
LINE
5
B1
330
1F
100
AcDbEntity
67
0
8
0
62
7
6
Continuous
370
25
48
1.0
60
0
100
AcDbLine
10
3.0
20
-15.75
30
0.0
11
3.0
21
-16.125
31
0.0
39
0.0
210
0.0
220
0.0
230
1.0
0
LINE
5
B2
330
1F
100
AcDbEntity
67
0
8
0
62
7
6
Continuous
370
25
48
1.0
60
0
100
AcDbLine
10
3.0
20
-16.125
30
0.0
11
5.0
21
-16.125
31
0.0
39
0.0
210
0.0
220
0.0
230
1.0
0
LINE
5
B3
330
1F
100
AcDbEntity
67
0
8
0
62
7
6
Continuous
370
25
48
1.0
60
0
100
AcDbLine
10
5.0
20
-16.125
30
0.0
11
5.0
21
-15.75
31
0.0
39
0.0
210
0.0
220
0.0
230
1.0
0
LINE
5
B4
330
1F
100
AcDbEntity
67
0
8
0
62
7
6
Continuous
370
25
48
1.0
60
0
100
AcDbLine
10
-3.0
20
-15.75
30
0.0
11
-5.0
21
-15.75
31
0.0
39
0.0
210
0.0
220
0.0
230
1.0
0
LINE
5
B5
330
1F
100
AcDbEntity
67
0
8
0
62
7
6
Continuous
370
25
48
1.0
60
0
100
AcDbLine
10
-5.0
20
-15.75
30
0.0
11
-5.0
21
-16.125
31
0.0
39
0.0
210
0.0
220
0.0
230
1.0
0
LINE
5
B6
330
1F
100
AcDbEntity
67
0
8
0
62
7
6
Continuous
370
25
48
1.0
60
0
100
AcDbLine
10
-5.0
20
-16.125
30
0.0
11
-3.0
21
-16.125
31
0.0
39
0.0
210
0.0
220
0.0
230
1.0
0
LINE
5
B7
330
1F
100
AcDbEntity
67
0
8
0
62
7
6
Continuous
370
25
48
1.0
60
0
100
AcDbLine
10
-3.0
20
-16.125
30
0.0
11
-3.0
21
-15.75
31
0.0
39
0.0
210
0.0
220
0.0
230
1.0
0
LINE
5
B8
330
1F
100
AcDbEntity
67
0
8
0
62
7
6
Continuous
370
25
48
1.0
60
0
100
AcDbLine
10
-3.0
20
-9.375
30
0.0
11
-5.0
21
-9.375
31
0.0
39
0.0
210
0.0
220
0.0
230
1.0
0
LINE
5
B9
330
1F
100
AcDbEntity
67
0
8
0
62
7
6
Continuous
370
25
48
1.0
60
0
100
AcDbLine
10
-5.0
20
-9.375
30
0.0
11
-5.0
21
-9.75
31
0.0
39
0.0
210
0.0
220
0.0
230
1.0
0
LINE
5
BA
330
1F
100
AcDbEntity
67
0
8
0
62
7
6
Continuous
370
25
48
1.0
60
0
100
AcDbLine
10
-5.0
20
-9.75
30
0.0
11
-3.0
21
-9.75
31
0.0
39
0.0
210
0.0
220
0.0
230
1.0
0
LINE
5
BB
330
1F
100
AcDbEntity
67
0
8
0
62
7
6
Continuous
370
25
48
1.0
60
0
100
AcDbLine
10
-3.0
20
-9.75
30
0.0
11
-3.0
21
-9.375
31
0.0
39
0.0
210
0.0
220
0.0
230
1.0
0
LINE
5
BC
330
1F
100
AcDbEntity
67
0
8
0
62
7
6
Continuous
370
25
48
1.0
60
0
100
AcDbLine
10
5.0
20
-9.375
30
0.0
11
3.0
21
-9.375
31
0.0
39
0.0
210
0.0
220
0.0
230
1.0
0
LINE
5
BD
330
1F
100
AcDbEntity
67
0
8
0
62
7
6
Continuous
370
25
48
1.0
60
0
100
AcDbLine
10
3.0
20
-9.375
30
0.0
11
3.0
21
-9.75
31
0.0
39
0.0
210
0.0
220
0.0
230
1.0
0
LINE
5
BE
330
1F
100
AcDbEntity
67
0
8
0
62
7
6
Continuous
370
25
48
1.0
60
0
100
AcDbLine
10
3.0
20
-9.75
30
0.0
11
5.0
21
-9.75
31
0.0
39
0.0
210
0.0
220
0.0
230
1.0
0
LINE
5
BF
330
1F
100
AcDbEntity
67
0
8
0
62
7
6
Continuous
370
25
48
1.0
60
0
100
AcDbLine
10
5.0
20
-9.75
30
0.0
11
5.0
21
-9.375
31
0.0
39
0.0
210
0.0
220
0.0
230
1.0
0
LINE
5
C0
330
1F
100
AcDbEntity
67
0
8
0
62
7
6
Continuous
370
25
48
1.0
60
0
100
AcDbLine
10
34.5364240629
20
-6.96875
30
0.0
11
34.5364240629
21
-5.0
31
0.0
39
0.0
210
0.0
220
0.0
230
1.0
0
LINE
5
C1
330
1F
100
AcDbEntity
67
0
8
0
62
7
6
Continuous
370
25
48
1.0
60
0
100
AcDbLine
10
34.5364240629
20
-5.0
30
0.0
11
37.1770740629
21
-5.0
31
0.0
39
0.0
210
0.0
220
0.0
230
1.0
0
LINE
5
C2
330
1F
100
AcDbEntity
67
0
8
0
62
7
6
Continuous
370
25
48
1.0
60
0
100
AcDbLine
10
37.1770740629
20
-5.0
30
0.0
11
37.1770740629
21
5.0
31
0.0
39
0.0
210
0.0
220
0.0
230
1.0
0
LINE
5
C3
330
1F
100
AcDbEntity
67
0
8
0
62
7
6
Continuous
370
25
48
1.0
60
0
100
AcDbLine
10
37.1770740629
20
5.0
30
0.0
11
34.5364240629
21
5.0
31
0.0
39
0.0
210
0.0
220
0.0
230
1.0
0
LINE
5
C4
330
1F
100
AcDbEntity
67
0
8
0
62
7
6
Continuous
370
25
48
1.0
60
0
100
AcDbLine
10
34.5364240629
20
5.0
30
0.0
11
34.5364240629
21
6.96875
31
0.0
39
0.0
210
0.0
220
0.0
230
1.0
0
LINE
5
C5
330
1F
100
AcDbEntity
67
0
8
0
62
7
6
Continuous
370
25
48
1.0
60
0
100
AcDbLine
10
34.5364240629
20
6.96875
30
0.0
11
35.0520740629
21
6.96875
31
0.0
39
0.0
210
0.0
220
0.0
230
1.0
0
LINE
5
C6
330
1F
100
AcDbEntity
67
0
8
0
62
7
6
Continuous
370
25
48
1.0
60
0
100
AcDbLine
10
35.0520740629
20
6.96875
30
0.0
11
35.0520740629
21
7.0
31
0.0
39
0.0
210
0.0
220
0.0
230
1.0
0
LINE
5
C7
330
1F
100
AcDbEntity
67
0
8
0
62
7
6
Continuous
370
25
48
1.0
60
0
100
AcDbLine
10
35.0520740629
20
7.0
30
0.0
11
34.4375
21
7.0
31
0.0
39
0.0
210
0.0
220
0.0
230
1.0
0
LINE
5
C8
330
1F
100
AcDbEntity
67
0
8
0
62
7
6
Continuous
370
25
48
1.0
60
0
100
AcDbLine
10
34.4375
20
7.0
30
0.0
11
34.4375
21
-7.0
31
0.0
39
0.0
210
0.0
220
0.0
230
1.0
0
LINE
5
C9
330
1F
100
AcDbEntity
67
0
8
0
62
7
6
Continuous
370
25
48
1.0
60
0
100
AcDbLine
10
34.4375
20
-7.0
30
0.0
11
35.0520740629
21
-7.0
31
0.0
39
0.0
210
0.0
220
0.0
230
1.0
0
LINE
5
CA
330
1F
100
AcDbEntity
67
0
8
0
62
7
6
Continuous
370
25
48
1.0
60
0
100
AcDbLine
10
35.0520740629
20
-6.96875
30
0.0
11
35.0520740629
21
-7.0
31
0.0
39
0.0
210
0.0
220
0.0
230
1.0
0
LINE
5
CB
330
1F
100
AcDbEntity
67
0
8
0
62
7
6
Continuous
370
25
48
1.0
60
0
100
AcDbLine
10
34.5364240629
20
-6.96875
30
0.0
11
35.0520740629
21
-6.96875
31
0.0
39
0.0
210
0.0
220
0.0
230
1.0
0
MTEXT
5
CD
330
1F
100
AcDbEntity
67
0
8
BEND
62
7
6
Continuous
370
0
48
1.0
60
0
100
AcDbMText
10
-34.9075398851
20
-0.0162615485
30
0.0
210
0.0
220
0.0
230
1.0
1
UP  90\U+00B0  R 0.313
40
0.125
41
0.0
44
1.0
11
-0.0000000000000035
21
1.0
31
0.0
71
2
72
1
73
1
7
SLDTEXTSTYLE0
0
MTEXT
5
CE
330
1F
100
AcDbEntity
67
0
8
BEND
62
7
6
Continuous
370
0
48
1.0
60
0
100
AcDbMText
10
34.586462758
20
-16.2662615485
30
0.0
210
0.0
220
0.0
230
1.0
1
UP  90\U+00B0  R 0.313
40
0.125
41
0.0
44
1.0
11
-0.0000000000000035
21
1.0
31
0.0
71
2
72
1
73
1
7
SLDTEXTSTYLE0
0
LINE
5
E2
330
1F
100
AcDbEntity
67
0
8
ETCH
62
256
6
ByLayer
370
-1
48
1.0
60
0
100
AcDbLine
10
-34.7447870314
20
-25.5
30
0.0
11
-34.7447870314
21
-24.5
31
0.0
39
0.0
210
0.0
220
0.0
230
1.0
0
LINE
5
E4
330
1F
100
AcDbEntity
67
0
8
ETCH
62
256
6
ByLayer
370
-1
48
1.0
60
0
100
AcDbLine
10
-34.7447870314
20
25.5
30
0.0
11
-34.7447870314
21
24.5
31
0.0
39
0.0
210
0.0
220
0.0
230
1.0
0
LINE
5
E5
330
1F
100
AcDbEntity
67
0
8
ETCH
62
256
6
ByLayer
370
-1
48
1.0
60
0
100
AcDbLine
10
34.7447870314
20
-25.5
30
0.0
11
34.7447870314
21
-24.5
31
0.0
39
0.0
210
0.0
220
0.0
230
1.0
0
LINE
5
E6
330
1F
100
AcDbEntity
67
0
8
ETCH
62
256
6
ByLayer
370
-1
48
1.0
60
0
100
AcDbLine
10
34.7447870314
20
-7.0
30
0.0
11
34.7447870314
21
-8.0
31
0.0
39
0.0
210
0.0
220
0.0
230
1.0
0
LINE
5
E7
330
1F
100
AcDbEntity
67
0
8
ETCH
62
256
6
ByLayer
370
-1
48
1.0
60
0
100
AcDbLine
10
34.7447870314
20
7.0
30
0.0
11
34.7447870314
21
8.0
31
0.0
39
0.0
210
0.0
220
0.0
230
1.0
0
LINE
5
E8
330
1F
100
AcDbEntity
67
0
8
ETCH
62
256
6
ByLayer
370
-1
48
1.0
60
0
100
AcDbLine
10
34.7447870314
20
25.5
30
0.0
11
34.7447870314
21
24.5
31
0.0
39
0.0
210
0.0
220
0.0
230
1.0
0
ENDSEC
0
SECTION
2
OBJECTS
0
DICTIONARY
5
EC
330
0
100
AcDbDictionary
280
0
281
1
3
ACAD_GROUP
350
ED
3
ACAD_LAYOUT
350
EE
3
ACAD_MLINESTYLE
350
F2
0
DICTIONARY
5
ED
330
EC
100
AcDbDictionary
280
0
281
1
0
DICTIONARY
5
EE
330
EC
100
AcDbDictionary
280
0
281
1
3
Layout1
350
1E
3
Layout2
350
26
3
Model
350
22
0
DICTIONARY
5
F2
330
EC
100
AcDbDictionary
280
0
281
1
3
Standard
350
18
0
LAYOUT
5
1E
330
EE
100
AcDbPlotSettings
1

2
none_device
4

6

40
0.0
41
0.0
42
0.0
43
0.0
44
0.0
45
0.0
46
0.0
47
0.0
48
0.0
49
0.0
140
0.0
141
0.0
142
1.0
143
1.0
70
688
72
0
73
0
74
5
7

75
16
76
0
77
2
78
300
147
1.0
148
0.0
149
0.0
100
AcDbLayout
1
Layout1
70
1
71
1
10
0.0
20
-7.5
11
12.0
21
9.0
12
0.0
22
0.0
32
0.0
14
100000000000000000000.0
24
100000000000000000000.0
34
100000000000000000000.0
15
-100000000000000000000.0
25
-100000000000000000000.0
35
-100000000000000000000.0
146
0.0
13
0.0
23
0.0
33
0.0
16
1.0
26
0.0
36
0.0
17
0.0
27
1.0
37
0.0
76
0
330
1B
0
LAYOUT
5
26
330
EE
100
AcDbPlotSettings
1

2
none_device
4

6

40
0.0
41
0.0
42
0.0
43
0.0
44
0.0
45
0.0
46
0.0
47
0.0
48
0.0
49
0.0
140
0.0
141
0.0
142
1.0
143
1.0
70
688
72
0
73
0
74
5
7

75
16
76
0
77
2
78
300
147
1.0
148
0.0
149
0.0
100
AcDbLayout
1
Layout2
70
1
71
2
10
0.0
20
-7.5
11
0.0
21
0.0
12
0.0
22
0.0
32
0.0
14
0.0
24
0.0
34
0.0
15
0.0
25
0.0
35
0.0
146
0.0
13
0.0
23
0.0
33
0.0
16
1.0
26
0.0
36
0.0
17
0.0
27
1.0
37
0.0
76
0
330
23
0
LAYOUT
5
22
330
EE
100
AcDbPlotSettings
1

2
none_device
4
Letter_(8.50_x_11.00_Inches)
6

40
6.35
41
6.35
42
6.35000508
43
6.35000508
44
215.9
45
279.4
46
0.0
47
0.0
48
0.0
49
0.0
140
0.0
141
0.0
142
1.0
143
1.0
70
1712
72
0
73
0
74
0
7

75
0
76
0
77
2
78
300
147
1.0
148
0.0
149
0.0
100
AcDbLayout
1
Model
70
1
71
3
10
0.0
20
-7.5
11
17.0
21
11.0
12
0.0
22
0.0
32
0.0
14
0.0
24
0.0
34
0.0
15
17.0
25
11.0
35
0.0
146
0.0
13
0.0
23
0.0
33
0.0
16
1.0
26
0.0
36
0.0
17
0.0
27
1.0
37
0.0
76
0
330
1F
0
MLINESTYLE
5
18
330
F2
100
AcDbMlineStyle
2
Standard
70
0
3

62
256
51
90.0
52
90.0
71
2
49
0.5
62
256
6
ByLayer
49
-0.5
62
256
6
ByLayer
0
ENDSEC
0
EOF
